#PLEASE NOTE:  This file represents my impression of how Jonatha Brooke
plays this song from listening to the track on the Steady Pull CD.  
You may only use this file for private study, scholarship, or research.  
Please email me <marian@jmdl.com> if you have a different impression 
of how it should be played. # 

Created:  2001-03-25

Your House
Words & Music by Jonatha Brooke

Transcribed by:  Marian <marian@jmdl.com>

Tuning:  CGEbFBbD
         C78254

VG-8 pitches:  -2 -1 -2 1 -2 -4  (highest to lowest strings)

+ + + + + + + + 

Notes:  

The fret positions are in relation to the capo.

I have given only the basic patterns.

+ + + + + + + + 


Intro:

------------------0----------------------
-----0--0------2--------0--0-------------
------------------0--------------0--0----
-----1--1------2--------1--1-----0--0----
------------0--------------------2--2----
---0------------------0-------0----------


------------------0----------------------
-----0--0------2--------0--0-------------
------------------0--------------0--0----
-----1--1------2--------1--1-----0--0----
------------0--------------------2--2----
---0------------------0-------0----------


1st verse:

------------------0----------------------
-----0--0------2--------0--0-------------
------------------0--------------0--0----
-----1--1------2--------1--1-----0--0----
------------0--------------------2--2----
---0------------------0-------0----------
   Take me  down     to your  house



------------------0----------------------
-----0--0------2--------0--0-------------
------------------0--------------0--0----
-----1--1------2--------1--1-----0--0----
------------0--------------------2--2----
---0------------------0-------0----------
     Show me where you  live


5560xx          5550xx
Room by room    all the things you


------------------0----------------------
-----0--0------2--------0--0-------------
------------------0--------------0--0----
-----1--1------2--------1--1-----0--0----
------------0--------------------2--2----
---0------------------0-------0----------
   cherish


------------------0----------------------
-----0--0------2--------0--0-------------
------------------0--------------0--0----
-----1--1------2--------1--1-----0--0----
------------0--------------------2--2----
---0------------------0-------0----------
   Tell me where you're go-   ing


------------------0----------------------
-----0--0------2--------0--0-------------
------------------0--------------0--0----
-----1--1------2--------1--1-----0--0----
------------0--------------------2--2----
---0------------------0-------0----------
    Show me where you've been


5560xx          5550xx
Year by year    All the things that


------------------0----------------------
-----0--0------2--------0--0-------------
------------------0--------------0--0----
-----1--1------2--------1--1-----0--0----
------------0--------------------2--2----
---0------------------0-------0----------
   you wished                        and I'll


222020     999090
give my    love


222020     999090
give my    love


12 12 12 xxx    11 10 11 xxx     10 10 10 xxx
Angel           I am             here and 


33300x
I am 


------------------0----------------------
-----0--0------2--------0--0-------------
------------------0--------------0--0----
-----1--1------2--------1--1-----0--0----
------------0--------------------2--2----
---0------------------0-------0----------
   yours


+ + + + +


Outtro:

556xxx     555xxx
Room by    room
Year by    year
One by     one


556xxx     889xxx
say        goodnight


------------------0----------------------
-----0--0------2--------0--0-------------
------------------0--------------0--0----
-----1--1------2--------1--1-----0--0----
------------0--------------------2--2----
---0------------------0-------0----------
   love


------------------0----------------------
-----0--0------2--------0--0-------------
------------------0--------------0--0----
-----1--1------2--------1--1-----0--0----
------------0--------------------2--2----
---0------------------0-------0----------


------------------0----------------------
-----0--0------2--------0--0-------------
------------------0--------------0--0----
-----1--1------2--------1--1-----0--0----
------------0--------------------2--2----
---0------------------0-------0----------
   love


------------------0-----------
-----0--0------2----------0---
------------------0------0----
-----1--1------2--------1-----
------------0----------0------
---0------------------0-------


 2001 Dog Dream Music, ASCAP