Westpoint
Jonatha Brooke
Album - Plumb and LIVE

Tuning:   Drop D - Capo 4th fret

Actually used the LIVE album mostly for tabbing this out 
(its easier to pick out the guitar).

Ken 
<ktemple@nyc.rr.com>


INTRO /VERSE:

----------------------|----------------------------------
----------------------|----------------------------------
------0-0---0--0------|-----0----0-0---------------------
----------------------|----------------------------------
-0H-2----2------2P0---|0H2----2------2P-0----------------
----------------------|----------------------------------


                     ON 2ND & 4TH Verse REPLACE W/ FILL BELOW
-------0--------0-----|--0-------------------------------
-------3--------3p-0--|--3-------------------------------
---0-------0-----/----|--0--------------------------------
---4-------4----------|--4-----4P-0-----------------------
---5-------5----------|--5-----5----5-5-4P-0-------------
---5-------5----------|--5-----5-------------------------



---------------0-------|---------------------------------
---------------0-------|---------------------------------
--------0------0-------|---------------------------------
--------4------4-------|------------REPEAT 1X -----------           
--------2--------------|---------------------------------
---0H2--2------------2-|---------------------------------



------------------0-------|------------------------------
------------------3-------|------------------------------
---------------0--0--0----|------------------------------
--------4------2- 2-2P0---|--------REPEAT 1X------------
----0----------0-----0----|------------------------------
----0----------X----------|------------------------------


FILL:

----------------------------------
----------------------------------
--------------0-------------------
----5---------0-------------------
----3---------0-------------------
----3-----2---0h2p0---------------


BRIDGE:

-----0-----------------|---0------0----------------------
-----3------0----------|---0------0----------------------
-----0------0----------|---4------4----------------------
-----4------4----------|---5------5---------------------
-----5------2----------|---X------X----------------------
-----5------2----------|---4------5----------------------


----------------------|----0-----------------------------
-----2------2---------|----3----------------------------
-----0------0---------|----0-----------------------------
-----2------2---------|----4-----------------------------
-----0------1---------|----2-----------------------------
----------------------|----------------------------------


-----|----------0---------|---------0----4---------------
-----|----------0---------|---------0----0---------------
-----|----------0---------|-----4--------2---------------
-----|------4---4---------|-----5--------0---------------
-----|------2---2---------|-----0--------0---------------
----2|-0H2--2---2---------|-----------------------------


---|--------0------5----------
---|--------0------5----------
---|----4---4------3----------
---|----5----------5----------
---|----0---------------------
---|--------------------------


CHORUS:

-----0--------|---0--------|-----0----|-----0-----|------
-----3--------|---3--------|-----3----|-----5-----|------
-----0--------|---2--------|-----0----|-----6-----|------
-----0--------|---0--------|-----4----|-----7-----|------
-----2--------|---0--------|-----5----|-----X-----|------
--------------|------------|-----5----|-----4-----|------


---------------0--------|--------------------------------
---------------0--------|--------------------------------
---------------0--------|--------0-----------------------
----------4----4--------|--------4-----------------------
----------2----2--------|--------2----0h1-1--0----------
-----0H-2-2----2--------|--0H-2--2-----------------------


-----------------0-------|-------------------------------
-----------------3-------|-------------------------------
---------0----0----------|-----Rpt-1X--------------------
-----0---4----2-----2p0--|-------------------------------
-----0--------0-----0----|-------------------------------
-----0-------------------|-------------------------------


BACK TO VERSE


 1995 Dog Dream Music (ASCAP), MCA Music Publishing