#PLEASE NOTE: This file represents my impression of how Jonatha Brooke  
plays this song from listening to the track on the CD from Jonatha Brooke 
& The Story called Angel In The House.  You may only use this file for 
private study, scholarship, or research.  Please email me 
<marian@jmdl.com> if you have a different impression of how 
it should be played. # 

Created:  2001-06-23


So Much Mine
Words & Music by Jonatha Brooke

Tuning:  DADEAD - Capo 2
         D75255

VG-8 pitches:  0 0 -1 2 2 0  (highest to lowest strings)


Transcribed by:  <marian@jmdl.com>

+ + + + + + + +

I have only given the basic chord shapes.

+ + + + + + + +

Intro:

002000    440500    550700    770900


002000    440500    550700    770900


1st verse:

002000    
Where'd you get that dress?


440500    
Where'd you learn to walk like


550700         770900
that?    Don't talk back


002000    
Tell me where you've been


440500    
Maybe I don't want to 


550700          770900
know   Oh Lord, why me?    You were


Chorus:

002000        990 10 00
so much       so much mine now I


550700
reach for you and I 


220300
cannot find you 


002000        990 10 00
so much       so much mine now I


550700
reach for you and I 


220300
cannot find you 


-------2--3--0--|---------------
----------------|---------------
----------------|---6----5------
----------------|---0----0------
----------------|---5----5------
----0-----------|---5----5------
 So much mine
 So much mine
 So much mine


+ + + + + + + +

Outtro:


    550700                220300
And there's no place like home


-------2--3--0--|---------------
----------------|---------------
----------------|---6----5------
----------------|---0----0------
----------------|---5----5------
----0-----------|---5----5------
 So much mine
 So much mine
 So much mine
 So much mine


-------2--3--0--|
----------------|
----------------|
----------------|
----------------|
----0-----------|
 So much mine


 1993 Dog Dream Music (ASCAP)