#PLEASE NOTE: This file represents my impression of how Jonatha Brooke  
plays this song from listening to the track on the Ten Cent Wings CD 
from Jonatha Brooke. &nbs; You may only use this file for private study, 
scholarship, or research.  Please email me <marian@jmdl.com> 
if you have a different impression of how it should be played. # 

Created:  2001-02-25


Shame On Us
Words & Music by Jonatha Brooke

Tuning:  CGDFBbD - capo 2
         C77354

VG-8 pitches:  0 1 0 2 0 -2  (highest to lowest strings)

Transcribed by:  <marian@jmdl.com>


+ + + + + + + + 

Notes:  

The fret positions are in relation to the position of the capo.

+ + + + + + + + 

Intro: [play twice]

------0--0---0--0--0------0--0---0--0--0--0-----------
------0--0---0--0--0------0--0---0--0--0--0-----------
------0--0---0--0--0------0--0---0--0--0--0-----------
------1--0---1--3--1------0--1---0--1--3--1-----------
------0--0---0--0--0------0--0---0--0--0--0---0-------
---0-------------------0-------------------------0----


1st verse:

------0--0---0--0--0------0--0---0--0--0--0-----------
------0--0---0--0--0------0--0---0--0--0--0-----------
------0--0---0--0--0------0--0---0--0--0--0-----------
------1--0---1--3--1------0--1---0--1--3--1-----------
------0--0---0--0--0------0--0---0--0--0--0---0-------
---0-------------------0-------------------------0----
   It's the little failures every day that


------5--5---5--5--5------x--x-----------0--0-------
------5--5---5--5--5------x--x-----------0--0-------
------5--5---5--5--5------3--2-----------2--0-------
------6--5---6--8--6------3--3-----------0--0-------
------5--5---5--5--5------3--3-----------0--0-------
---5-------------------3-----------------2--2-------
   take you far away        take you far away from


------0--0---0--0--0------0--0---0--0--0--0-----------
------0--0---0--0--0------0--0---0--0--0--0-----------
------0--0---0--0--0------0--0---0--0--0--0-----------
------1--0---1--3--1------0--1---0--1--3--1-----------
------0--0---0--0--0------0--0---0--0--0--0---0-------
---0-------------------0-------------------------0----
   me                  fail to notice, fail to speak, 


------5--5---5--5--5------x--x-----------0--0-------
------5--5---5--5--5------x--x-----------0--0-------
------5--5---5--5--5------3--2-----------2--0-------
------6--5---6--8--6------3--3-----------0--0-------
------5--5---5--5--5------3--3-----------0--0-------
---5-------------------3-----------------2--2-------
  fail to tow the line fail to keep the coast 


------0--0---0--0--0------0--0---0--0--0--0-----------
------0--0---0--0--0------0--0---0--0--0--0-----------
------0--0---0--0--0------0--0---0--0--0--0-----------
------1--0---1--3--1------0--1---0--1--3--1-----------
------0--0---0--0--0------0--0---0--0--0--0---0-------
---0-------------------0-------------------------0----
   clear

..... etc.


88 10 10 98    555757         055757
I guess we     didn't fool    anyone


10 10 11 12 10 10    88 10 10 98
                                  for 


556755      13 13 13 12 00      x 13 13 11 10 x
any part of the time



Refrain:

001000   000000    556555   555555  556555   558555   556555
Shame    on        us    


3333xx             200200    001000
Shame              on        love



 1997 Dog Dream Music (ASCAP), MCA Music Publishing