#PLEASE NOTE: This file represents my impression of how Jonatha Brooke  
plays this song from listening to the track on the CD from Jonatha Brooke 
Ten Cent Wings You may only use this file for private study, 
scholarship, or research.  Please email me <marian@jmdl.com> 
if you have a different impression of how it should be played. # 

Updated:  2001-02-24


Secrets And Lies
Words & Music by Jonatha Brooke

Tuning:  CGDGBD
         C77543

VG-8 pitches:  -2 0 0 0 -2 -4  (highest to lowest strings)

Transcribed by:  <marian@jmdl.com>


+ + + + + + + + 

Notes:  

/ = slide
h = hammer on
p = pull off

+ + + + + + + + 


Intro:

D-----------------------|-------------------------
B-----------------------|-------------------------
G-----------------------|-------------------------
D-------7---------2--3--|--------5----------2p0---
G-----7-----------------|------5---(5)------------
C---7--------0h2--------|----5------------0-------


D-----------------------|-------------------------
B-----------------------|-------------------------
G-----------------------|-------------------------
D-------7---------2--3--|--------5----------2p0---
G-----7-----------------|------5---(5)------------
C---7--------0h2--------|----5------------0-------



D-----------------------|-------------------------
B-----------------------|-------------------------
G-----------------------|-------------------------
D-------7---------2--3--|--------5----------2p0---
G-----7-----------------|------5---(5)------------
C---7--------0h2--------|----5------------0-------
    
     Every twenty seconds  ..... etc.


    ......

D-----------------------|-------------------------
B-----------------------|-------------------------
G-----------------------|-------------------------
D-------7---------2--3--|--------5----------2p0---
G-----7-----------------|------5---(5)------------
C---7--------0h2--------|----5------------0-------

     once or twice a day I ask for more


D-----------------------|-------------------------
B-----------------------|-------------------------
G-----------------------|-------------------------
D-------7---------2--3--|--------5----------2p0---
G-----7-----------------|------5---(5)------------
C---7--------0h2--------|----5------------0-------


D-----------------------|-------------------------
B-----------------------|-------------------------
G-----------------------|-------------------------
D-------7---------2--3--|--------5----------2p0---
G-----7-----------------|------5---(5)------------
C---7--------0h2--------|----5------------0-------


D-----------------------|-------------------------
B-----------------------|-------------------------
G-----------------------|-------------------------
D-------7---------2--3--|--------5----------2p0---
G-----7-----------------|------5---(5)------------
C---7--------0h2--------|----5------------0-------

    On a really good day   ..... etc.



D-----------------------|-------------------------
B-----------------------|-------------------------
G-----------------------|-------------------------
D-------7---------2--3--|--------5----------2p0---
G-----7-----------------|------5---(5)------------
C---7--------0h2--------|----5------------0-------

    but still I never miss a beat



x33330       x22220    x77770    
Get it on the table


x33330         x22220         000000    x22220    000000
Pass the gravy pass the buck


x33330       x22220    x77770      x7977x
Get it on the table    secrets and lies


x33330    x22220    055550
Silence   faith and luck


D----------------------
B----------------------
G---5h4---2p0----------
D---------------2h3----
G----------------------
C----------------------


D-----------------------|-------------------------
B-----------------------|-------------------------
G-----------------------|-------------------------
D-------7---------2--3--|--------5----------2p0---
G-----7-----------------|------5---(5)------------
C---7--------0h2--------|----5------------0-------


D-----------------------|-------------------------
B-----------------------|-------------------------
G-----------------------|-------------------------
D-------7---------2--3--|--------5----------2p0---
G-----7-----------------|------5---(5)------------
C---7--------0h2--------|----5------------0-------


D-----------------------|-------------------------
B-----------------------|-------------------------
G-----------------------|-------------------------
D-------7---------2--3--|--------5----------2p0---
G-----7-----------------|------5---(5)------------
C---7--------0h2--------|----5------------0-------
    
     Once a year the holidays  .....  etc.


D-----------------------|-------------------------
B-----------------------|-------------------------
G-----------------------|-------------------------
D-------7---------2--3--|--------5----------2p0---
G-----7-----------------|------5---(5)------------
C---7--------0h2--------|----5------------0-------

    You're staring at your lover or your friend



x33330       x22220    x77770    
Get it on the table


x33330         x22220         000000    x22220    000000
Pass the gravy pass the buck


x33330        x22220   x77770      x7977x
Get it on the table    secrets and lies


x33330    x22220    055550
Silence   faith and luck    'cause it's hand to 


x77760    x57760   x33330    x00330   055550
mouth              door to   door     cradle to the


x77760    x57760       x33330    x00330          
grave       askin for  more           asking for    


055550
more    'cause it's hand to 


x77760    x57760   x33330    x00330   055550
mouth              door to   door     cradle to the


x77760    x57760           x33330    x00330          
grave           askin for  more           asking for    


055550              000000
more I'm asking for more


D----------------------
B----------------------
G---5h4---2h0----------
D---------------2h3----
G----------------------
C----------------------


D-----------------------|-------------------------
B-----------------------|-------------------------
G-----------------------|-------------------------
D-------7---------2--3--|--------5----------2p0---
G-----7-----------------|------5---(5)------------
C---7--------0h2--------|----5------------0-------


D-----------------------|-------------------------
B-----------------------|-------------------------
G-----------------------|-------------------------
D-------7---------2--3--|--------5----------2p0---
G-----7-----------------|------5---(5)------------
C---7--------0h2--------|----5------------0-------


D-----------------------|-------------------------
B-----------------------|-------------------------
G-----------------------|-------------------------
D-------7---------2--3--|--------5----------2p0---
G-----7-----------------|------5---(5)------------
C---7--------0h2--------|----5------------0-------
    
    Maybe if you're lucky  ..... etc.


D-----------------------|-------------------------
B-----------------------|-------------------------
G-----------------------|-------------------------
D-------7---------2--3--|--------5----------2p0---
G-----7-----------------|------5---(5)------------
C---7--------0h2--------|----5------------0-------
 
    Was chance the only certainty in life?


x33330       x22220    x77770    
Get it on the table


x33330         x22220         000000    x22220    000000
Pass the gravy pass the buck


x33330        x22220   x77770      x7977x
Get it on the table    secrets and lies


x33330    x22220    055550
Silence   faith and luck   


x33330       x22220    x77770    
Get it on the table


x33330         x22220         000000    x22220    000000
Pass the gravy pass the buck


x33330        x22220   x77770      x7977x
Get it on the table    secrets and lies


x33330    x22220    055550
Silence   faith and luck   


D----------------------
B----------------------
G---5h4---2h0----------
D---------------2h3----
G----------------------
C----------------------


Outtro:

Fade out with this (it's repeated about 7 times)

D-----------------------|-------------------------
B-----------------------|-------------------------
G-----------------------|-------------------------
D-------7/5-------2--3--|--------5----------2p0---
G-----7-----------------|------5---(5)------------
C---7----------2--------|----5------------0-------


 1997 Dog Dream Music (ASCAP), MCA Music Publishing