#PLEASE NOTE:  This file represents my impression of how Jonatha Brooke
plays this song from listening to the track on her Plumb CD.  
You may only use this file for private study, scholarship, or research.  
Please email me <marian@jmdl.com> if you have a different impression 
of how it should be played. # 

Created:  2001-03-24

Paris
Words & Music by Jonatha Brooke

Transcribed by:  Marian <marian@jmdl.com>

Tuning:  C#ADGBE - capo 2nd fret
         C#85545

VG-8 pitches:  2 2 2 2 2 -1  (highest to lowest strings)

+ + + + + + + + 

Notes:  

The fret positions are in relation to the capo.

I have given only the basic patterns.

+ + + + + + + + 


Intro: [repeat twice]

-------0--0----------0--0--------0--0----------0--0---------
------------------------------------------------------------
-------------0-------------0-------------0------------------
-------6--6----------6--6--------6--6--6-------6--6----6----
-----------------------------------------------------0------
---0-----------0-------------0-------------0----------------



1st verse:


066650              007870      066650    099890
L'Allemande used to visit me in Paris  in Paris


066650              007870      066650    099890
I remember the      men I re-   member the houses in



-------0--0----------0--0--------0--0----------0--0---------
------------------------------------------------------------
-------------0-------------0-------------0------------------
-------6--6----------6--6--------6--6--6-------6--6----6----
-----------------------------------------------------0------
---0-----------0-------------0-------------0----------------
   Paris


066650           504400      324100   204200
And he'd come in looking for comfort


076600         899800          x76400       70x898
Leave again    looking to the  left and the right


       0xx897   0xx886 
Did we see too  much


0xx897   0xx886 
Say too  little


877600              0xxxxx  201200
Stepping over every dark    thing


877600                0xxxxx  201200
would it all be true     tomorrow


70x898
But, he loves me


-------0--0----------0--0--------0--0----------0--0---------
------------------------------------------------------------
-------------0-------------0-------------0------------------
-------6--6----------6--6--------6--6--6-------6--6----6----
-----------------------------------------------------0------
---0-----------0-------------0-------------0----------------


-------0--0----------0--0--------0--0----------0--0---------
------------------------------------------------------------
-------------0-------------0-------------0------------------
-------6--6----------6--6--------6--6--6-------6--6----6----
-----------------------------------------------------0------
---0-----------0-------------0-------------0----------------



2nd verse:  same patterns as 1st verse


046650         x24440    x04440   7xx898       
I walk with my head held high and naked in the 


046650      x24440          x04440           7xx898       
sun         claiming these  streets for my-  self


046650         x24440    x04440   7xx898       
I walk with my head held high and naked in the 


046650      x24440          x04440           7xx898       
sun         claiming these  streets for my-  self    a-



-------0--0----------0--0--------0--0----------0--0---------
------------------------------------------------------------
-------------0-------------0-------------0------------------
-------6--6----------6--6--------6--6--6-------6--6----6----
-----------------------------------------------------0------
---0-----------0-------------0-------------0----------------
   gain


-------0--0----------0--0--------0--0----------0--0---------
------------------------------------------------------------
-------------0-------------0-------------0------------------
-------6--6----------6--6--------6--6--6-------6--6----6----
-----------------------------------------------------0------
---0-----------0-------------0-------------0----------------


3rd verse:

066650   007870     066650     099890
I am the unchanging narrative, I don't resolve 


066650   007870     066650     099890
neatly


066650       007870    066650  099890
And I am the unchained melody, the current of the need 


066650   007870     066650     099890
to survive


..... etc.



 1997 Dog Dream Music, ASCAP