#PLEASE NOTE:  This file represents my impression of how Jonatha Brooke
plays this song from listening to the track on the Steady Pull CD.  
You may only use this file for private study, scholarship, or research.  
Please email me <marian@jmdl.com> if you have a different impression 
of how it should be played. # 

Created:  2002-03-31
Corrected:  2002-04-10

Lullaby
Words & Music by Jonatha Brooke

Transcribed by:  Marian <marian@jmdl.com>

Tuning:  DADGAD
         D75525

VG-8 pitches:  -2 -2 0 0 0 -2  (highest to lowest strings)

+ + + + + + + + 

Intro:

D-------------------------------------------------------------------
A------------------------------------------0---------------0--------
G--------9---9----------9---9-----------9---------------9-----------
D--------9---9----------9---9--------------7---------------7--------
A--------9---9----------9---9-----------8---------------8-----------
D-----0--------------9---------------8---------------8--------------


D-------------------------------------------------------------------
A------------0--------------0---------------------------------------
G--------7--------------1---------------7--7------------5--6--------
D------------6--------------2-----------7--7------------7--7--------
A--------7--------------2---------------7--7------------7--7--------
D-----6--------------2---------------7---------------7--------------


D-------------------------------------------------------------------
A------------------------------------------0------------------------
G--------9---9----------9---9-----------9---------------5--5--------
D--------9---9----------9---9--------------7------------7--7--------
A--------9---9----------9---9-----------8---------------7--7--------
D-----0--------------9---------------8---------------7--------------
      There you      are            bathed in        bright light 


D-------------------------------------------------------------------
A-------------------------------------------------------------------
G--------7---7----------5---5-----------1--1------------1--1--------
D--------6---6----------7---7-----------2--2------------2--2--------
A--------7---7----------7---7-----------2--2------------2--2--------
D-----6--------------7---------------2---------------2--------------
      all  your      friends have    gone                   you've


D-------------------------------------------------------------------
A-------------------------------------------------------------------
G--------2---2----------2---2------------10--10----------9----------
D--------3---3----------3---3------------10--10---------10----------
A--------3---3----------3---3------------10--10---------10----------
D-----3--------------3---------------10--------------10-------------
      had                     a      great fright  



D-------------------------------------------------------------------
A-------------------------------------------------------------------
G--------2---2----------2---2-----------5--5------------1--1--------
D--------3---3----------3---3-----------7--7------------2--2--------
A--------3---3----------3---3-----------7--7------------2--2--------
D-----3--------------3---------------7---------------2--------------
      all                      the   world's         a



D-------------------------------------------------------------------
A-------------------------------------------------------------------
G-------------------------------------------------------6--6--------
D--------10---10--------10--10-----------9--9-----------7--7--------
A--------10---10---------9---9-----------8--8-----------7--7--------
D-----7--------------7---------------7---------------7--------------
      stage



 + + + + + + +


D-------------------------------------------------------------------
A-------------------------------------------------------------------
G--------2---2----------2---2-----------7--7------------1--1--------
D--------3---3----------0---0-----------6--6------------2--2--------
A--------0---0----------3---3-----------7--7------------2--2--------
D-----0--------------3---------------6---------------2--------------
      On your        mark            watch your      step



D-------------------------------------------------------------------
A-------------------------------------------------------------------
G--------0---0----------0---0-----------6--6------------6--6--------
D--------7---7----------7---7-----------7--7------------7--7--------
A--------7---7----------7---7-----------7--7------------7--7--------
D-----7--------------7---------------7---------------7--------------
      go                             



D-------------------------------------------------------------------
A-------------------------------------------------------------------
G--------2---2----------2---2-----------7--7------------1--1--------
D--------3---3----------0---0-----------6--6------------2--2--------
A--------0---0----------3---3-----------7--7------------2--2--------
D-----0--------------3---------------6---------------2--------------
      All   your     life            led you         here



D-------------------------------------------------------------------
A-------------------------------------------------------------------
G--------5---5----------5---5-----------6--6------------6--6--------
D--------7---7----------7---7-----------7--7------------7--7--------
A--------7---7----------7---7-----------7--7------------7--7--------
D-----7--------------7---------------7---------------7--------------
      so



D-------------------------------------------------------------------
A------------------------------------------0---------------0--------
G--------9---9----------9---9-----------9---------------9-----------
D--------9---9----------9---9--------------7---------------7--------
A--------9---9----------9---9-----------8---------------8-----------
D-----0--------------9---------------8---------------8--------------
      say                    good-   night



D-------------------------------------------------------------------
A------------0--------------0---------------------------------------
G--------7--------------1---------------6--6------------6--6--------
D------------6--------------2-----------7--7------------7--7--------
A--------7--------------2---------------7--7------------7--7--------
D-----6--------------2---------------7---------------7--------------
      lul-           la-             by


D-------------------------------------------------------------------
A------------------------------------------0------------------------
G--------9---9----------9---9-----------9---------------5--5--------
D--------9---9----------9---9--------------7------------7--7--------
A--------9---9----------9---9-----------8---------------7--7--------
D-----0--------------9---------------8---------------7--------------
      Say                  good-     night



D-------------------------------------------------------------------
A------------0--------------0---------------------------------------
G--------7--------------1---------------0--0------------6--6--------
D------------6--------------2-----------7--7------------7--7--------
A--------7--------------2---------------7--7------------7--7--------
D-----6--------------2---------------7---------------7--------------
      don't          say             why




Outtro:


D-------------------------------------------------------------------
A-------------------------------------------------------------------
G-------------------------------------------------------------------
D--------10---10--------10--10-----------9--9-----------6--7--------
A--------10---10---------9---9-----------8--8-----------6--7--------
D-----7--------------7---------------7---------------7--------------
      stage



 + + + + + + +


©2001 Dog Dream Music, ASCAP