#PLEASE NOTE:  This file represents my impression of how Jonatha Brooke
plays this song from listening to the track on The Angel In The House CD.  
You may only use this file for private study, scholarship, or research.  
Please email me <marian@jmdl.com> if you have a different impression 
of how it should be played. # 

Created:  2001-02-24 - Corrected:  2001-04-21

Love Song
Words & Music by Jonatha Brooke

Transcribed by:  Marian <marian@jmdl.com>

Tuning:  EbBbEbFBbD - capo 4th fret
         Eb75254

VG-8 pitches:  2 3 2 5 5 3  (highest to lowest strings)

+ + + + + + + + 

Notes:  

The fret positions are in relation to the capo.

I have given only the basic patterns.

+ + + + + + + + 


Intro:

-----0-------------0------1-----1--0---
------------2--------------------------
-----0------0------0------2--0--2--0---
---------------------------------------
---0-------------0------0--------------
----------0----------------------------


-----0-----------0----------------------
------------2----------2----------0-----
-----0------0----0----------0--0--------
-----------------------0----------------
---0-----------0------------------------
----------0----------2------2--2--------



-----0-------------0------1-----1--0---
------------2--------------------------
-----0------0------0------2--0--2--0---
---------------------------------------
---0-------------0------0--------------
----------0----------------------------



-----0-------------0--------------------
------------2-------------0---------0---
-----0------0------0-----------0-0------
--------------------------0-------------
---0-------------0----------------------
----------0-------------2------2-2------


1st verse:


-----0-------------0------1-----1--0---
------------2--------------------------
-----0------0------0------2--0--2--0---
---------------------------------------
---0------------0-0-----0--------------
----------0----------------------------
   If I   were     blind          would it


---------------------0-----------0-------
-----0------0---------------2-2-----2----
-----0----------------------0-0----------
------------0--------0-------------------
-----------------------------------------
---4------0------0-4------2---------2----
   all  come down                   to         


------------------------------0-------------
----------------------------0---0-----------
--------0-----0---------0-------------------
--------0-------------0---------------------
--0--2-----4--5--4--5---5---5------5-5-5----
--------------------------------------------
  this                             would you still


-----------------------------------------
-----------------------------------------
-----------0------0-0---0-0------0-------
---------0--------0-0---0-0----0---0-----
---0--2----------------------------------
--------------2---2-4---4-5--------------
   love me


..... etc.


----------------------------------------------
------2-----2--------2------------2/3/2--2----
------0-----0--------0------------0------0----
----------------------------------------------
---0------------------------------------------
---------0--2--0--2------2-2-2-2--------------
   Falling


-----------------------0-----------0-------
------2-----2--------2---2-------2---2-----
------0-----0--------0---------------------
-------------------------------------------
---0---------------------------------------
---------0--2--0--2----------2---2---------
   Falling       away                 I am


----------------------------------------------
------2-----2--------2------------2/3/2--2----
------0-----0--------0------------0------0----
----------------------------------------------
---0------------------------------------------
---------0--2--0--2------2-2-2-2--------------
   Falling


-----------------------0-----------0-------
------2-----2--------2---2-------2---2-----
------0-----0--------0---------------------
-------------------------------------------
---0---------------------------------------
---------0--2--0--2----------2---2---------
  Falling       away                   from



-----0-------------0------1-----1--0---
------------2--------------------------
-----0------0------0------2--0--2--0---
---------------------------------------
---0-------------0------0--------------
----------0----------------------------
   love again
 

-----0-----------0----------------------
------------2----------2----------0-----
-----0------0----0----------0--0--------
-----------------------0----------------
---0-----------0------------------------
----------0----------2------2--2--------



-----0-------------0------1-----1--0---
------------2--------------------------
-----0------0------0------2--0--2--0---
---------------------------------------
---0-------------0------0--------------
----------0----------------------------



-----0-------------0-------------------0h1---
------------2-------------0--------0h2-------
-----0------0------0-----------0h2-----------
--------------------------0------------------
---0-------------0---------------------------
----------0-------------2--------------------



 1997 Dog Dream Music, ASCAP