#PLEASE NOTE:  This file represents my impression of how Jonatha Brooke
plays this song from listening to the track on the Grace In Gravity CD.  
You may only use this file for private study, scholarship, or research.  
Please email me <marian@jmdl.com> if you have a different impression 
of how it should be played. # 

Created:  2001-02-25

Grace In Gravity
Words & Music by Jonatha Brooke

Transcribed by:  Marian <marian@jmdl.com>

Tuning:  C#EBEAE - capo 2
         C#37557

VG-8 pitches:  2 0 -1 -1 -3 -1   (highest to lowest strings)

+ + + + + + + + 

I have only given the basic patterns.

This tuning and these chord shapes work, but I have the
feeling that there might be an easier way to play this song.
Please let me know if you figure it out!

+ + + + + + + + 

[play this 4 times]


----------0----------0--------0-------0--------
------------5----------5--------5-------5------
--------------5-------------------5-------5----
------0----------------------------------------
----5----------------------3-------------------
------------------5----------------------------



1st verse:


----------0----------0--------0-------0--------
------------5----------5--------5-------5------
--------------5-------------------5-------5----
------0----------------------------------------
----5----------------------3-------------------
------------------5----------------------------
         Coming to the biggest city


----------0----------0--------0-------0--------
------------5----------5--------5-------5------
--------------5-------------------5-------5----
------0----------------------------------------
----5----------------------3-------------------
------------------5----------------------------
        in the dead of summer you were


----------0----------0--------0-------0--------
------------5----------5--------5-------5------
--------------5-------------------5-------5----
------0----------------------------------------
----5----------------------3-------------------
------------------5----------------------------
       chosen 'cause you would not close your


----------0----------0--------0-------0--------
------------5----------5--------5-------5------
--------------5-------------------5-------5----
------0----------------------------------------
----5----------------------3-------------------
------------------5----------------------------
      eyes



----------0----------0--------0-------0--------
------------5----------5--------5-------5------
--------------5-------------------5-------5----
------0----------------------------------------
----5----------------------3-------------------
------------------5----------------------------
     You danced among the finest - black and


----------0----------0--------0-------0--------
------------5----------5--------5-------5------
--------------5-------------------5-------5----
------0----------------------------------------
----5----------------------3-------------------
------------------5----------------------------
     blue in revelation, a


----------0----------0--------0-------0--------
------------5----------5--------5-------5------
--------------5-------------------5-------5----
------0----------------------------------------
----5----------------------3-------------------
------------------5----------------------------
      melancholy nothing could de-


----------0----------0--------0-------0--------
------------5----------5--------5-------5------
--------------5-------------------5-------5----
------0----------------------------------------
----5----------------------3-------------------
------------------5----------------------------
      scribe                              This is


-----------0-------0---------------------------
-------------8-----------------7------7--------
---------------8------8----------8------8------
-----------------------------------8------8----
----8--10-------------------6------------------
-----------------------------------------------
    Grace in                Gravi-        


-----------0-------0---------------------------
-------------8-----------------7------7--------
---------------8------8----------8------8------
-----------------------------------8------8----
----8--10-------------------6------------------
-----------------------------------------------
    ty


-----------0-------0---------------------------
-------------8-----------------7------7--------
---------------8------8----------8------8------
-----------------------------------8------8----
----8--10-------------------6------------------
-----------------------------------------------
    Grace in                Gravi-        


-----------0-------0---------------------------
-------------8-----------------7------7--------
---------------8------8----------8------8------
-----------------------------------8------8----
----8--10-------------------6------------------
-----------------------------------------------
    ty


[Repeat above patterns for 2nd verse]


Refrain:


0 12 12 12 10 0     077750    088870   077750
what                we        are      and


0 12 12 12 10 0     x66650    055550    055530
what                we        were      once


x3332x     x2300x   x3333x    x3332x    
are        now      far       e-        


x7775x   x8887x   x9998x    x 10 10 10 00
stranged



0 12 12 12 10 0     077750    088870   077750
what                we        are      and


0 12 12 12 10 0     x66650    055550    055530
what                we        were      once


x3332x     x2300x   x3333x    x3332x    
are        now      far       e-        


x5555x   x5554x 
stranged



Middle 8:  [6th and 5th strings have the alternating bass notes]

7x7760   x07760    7x7760   x07760


7x7760   x07760    7x7760   x07760


7x7760   x07760    7x7760   x07760


7x7760   x07760    7x7760   x07760



Outtro:

0 12 12 12 10 0     077750    088870   077750
what                we        are      and


0 12 12 12 10 0     x66650    055550    055530
what                we        were      once


x3332x     x2300x   x3333x    x3332x    
are        now      far       e-        


x7775x   x8887x   x9998x    x 10 10 10 00
stranged


0 12 12 12 10 0     077750    088870   077750
what                we        are      and


0 12 12 12 10 0     x66650    055550    055530
what                we        were      once


x3332x     x2300x   x3333x    x3332x    
are        now      far       e-        


x7795x  
stranged


 1991 Dog Dream Music, ASCAP