#PLEASE NOTE: This file represents my impression of how Jonatha Brooke  
plays this song from listening to the track on the Grace In Gravity 
CD by Jonatha Brooke.  You may only use this file for private study, 
scholarship, or research.  Please email me <marian@jmdl.com>
if you have a different impression of how it should be played. # 

Created:  2001-09-09


Dog Dreams
Words & Music by Jonatha Brooke

Tuning:  EADGBE
         E55545

VG-8 pitches:  0 0 0 0 0 0  (from highest to lowest)

Transcribed by:  <marian@jmdl.com>


+ + + + + + + +

Note:  I have given the basic patterns.  The first one is the intro 
pattern (played twice) and it is also used in each verse.

+ + + + + + + +

E----------------------------0----|--------------------------0-----
B--------------------------3------|------------------------3-------
G-----------0---------------------|---------0----------------------
F#--------4-------------4---------|-------4-------------4----------
B---------------2-3---------------|-------------2-3----------------
E------0--------------------------|----0---------------------------

       Me       and Rex took the        car  .... etc.

+ + + + + + + +

E-------------------------0-------|-----------------------0--------
B-----------4----------------4----|----------4----------------4----
G--------------4------------------|-------------4------------------
F#-------4------------4-----------|-------4------------4-----------
B----0-----------4----------------|----0----------4---------------
E---------------------------------|--------------------------------

      tease us    from the             other       side    .... etc.

+ + + + + + + +

E--------------------------------|----------------------0--------
B-----------4-----------4--------|----------4--------------4-----
G--------------4----------4------|-------------4-----------------
F#-------4------------4----------|-------4------------4----------
B-----------------0--------------|-------------------------------
E-----4--------------------------|----4-----------0--------------

     Dog          dreams    .... etc.

+ + + + + + + +

[Silence:]  Please don't wake us


022100    042200    022100    042200   022100    042200    022100    042200
up!                                                                       No


022100    042200    022100    042200
bad dog no stay   .... etc.



 1995 Dog Dream Music (ASCAP), MCA Music Publishing