#PLEASE NOTE: This file represents my impression of how Jonatha Brooke  
plays this song from listening to the track on the Grace In Gravity 
CD by Jonatha Brooke.  You may only use this file for private study, 
scholarship, or research.  Please email me <marian@jmdl.com>
if you have a different impression of how it should be played. # 

Corrected:  2001-04-27


Dog Dreams
Words & Music by Jonatha Brooke

Tuning:  CGDEbGC - capo 4th fret
         C77145

VG-8 pitches:  0 0 0 4 2 0  (from highest to lowest)

Transcribed by:  <marian@jmdl.com>


+ + + + + + + +

Note:  The fret positions are in relation to the capo.  The notes in the
tab are the notes that result after putting the capo on the 4th fret.

I have given the basic patterns.  The first one is the intro pattern 
(played twice) and it is also used in each verse.

+ + + + + + + +

E----------------------------0----|--------------------------0-----
B--------------------------3------|------------------------3-------
G-----------0---------------------|---------0----------------------
F#--------0-------------0---------|-------0-------------0----------
B---------------0-1---------------|-------------0-1----------------
E------0--------------------------|----0---------------------------

       Me       and Rex took the        car  .... etc.

+ + + + + + + +

E-------------------------0-------|-----------------------0--------
B-----------4----------------4----|----------4----------------4----
G--------------4------------------|-------------4------------------
F#-------0------------0-----------|-------0------------0-----------
B-----------------2---------------|----------------2---------------
E-----5---------------------------|----5---------------------------

      tease us    from the             other       side    .... etc.

+ + + + + + + +

E--------------------------------|----------------------0--------
B-----------4-----------4--------|----------4--------------4-----
G--------------4----------4------|-------------4-----------------
F#-------0------------0----------|-------0------------0----------
B----(4)---------(5)-------------|---(4)-------------------------
E-----4-----------5--------------|----4-----------0--------------

     Dog          dreams    .... etc.

+ + + + + + + +

[Silence:]  Please don't wake us


000100    022200    000100    020220   000100    022200    000100    020220
up!                                                                       No


000100    022200    000100    020220
bad dog no stay   .... etc.



 1995 Dog Dream Music (ASCAP), MCA Music Publishing