#PLEASE NOTE:  This file is the author's own work.  You may only 
use this file for private study, scholarship, or research.# 

Digging
from Steady Pull
words and music by Jonatha Brooke

Tuning: DADGad  Capo: 2nd Fret

MP3 of my transcription: http://panther.bsc.edu/~jhdavids/diggingtab.mp3

Questions & comments and transcrbed by: jimdavidsoniii@hotmail.com


Chords:

  0                    0        0                0
  0                    0        0                0
  0                    0        0                0
  5                    4        3                2
  5                    5        3                3
  5                    4        3                2
d--------------------------------------------------------: --0----------------------------------------
a-------------0-------------0-------------0-----------0--: --0----------------------------------------
G------0--------0-----------0--------0------0---------0--: --0----------------------------------------
D----5---5------------------4------3---3-----------2-----: --7----------------------------------------
A-------------------------5------------------------------: --5----------------------------------------
D--5-------5-----------4---------3-------3-------2-------: --0----------------------------------------
                                                             D

I'm digging deep       I am digging wide           Looking for clues        in the grand 
d--------------0-0-0------------0-------0-0-0--0-0-0-------0--------0-0-0-------------0---------------
a--------------0-0-0------------0-------0-0-0--0-0-0-------0--------0-0-0-------------0---------------
G-----------2--2-2-2------------0-------0-0-0--0-0-0-------0--------0-0-0-------------0---------------
D-----------0--0-0-0---4----4--------5--5-5-5--4-4-4-------0---0h2----------4------4------------------
A-----------2----------4----4--------5-------------------------0h2----------4------4------------------
D----------------------4----4--------0-------------------------0h2----------4------4------------------
               U D U            U    *   U U D  D D D       U        U D U
(* sometime 5/5/5 is played at this part rather than 0/5/5.)

    design                    no         better  no better I'll never  ever be ...what I(strum ad lib)
d----------0------------------0-0-0-0-0----------x------0--------0--0----------0--------------------
a----------0------------------0-0-0-0-0----------x------0--------0--0----------0--------------------
G---2------2------------------0-0-0-0-0----------x------0--------0--0--------9-9--------------------
D---0----------0----0----0--2---------2--4-------x--5------------7--7--------9----------------------
A---2----------2/4--4/5--0--2---------2--4-------x--5------------7--7--------9----------------------
D------------------------0--2---------2--4-------x--5------------7--7--------9----------------------
                              U U D D U                          U  U

Chord:

  0
  0
  0
  2
  2
  2
Note: Jonatha Plays this say chord but frets the G string on the second fret which is equal to the open a string. 
First Ending:
   find                              Cuz I have
d------------------------------------------------:-----------------------------------
a------------0----------------0------------------:-----------------------------------
G------0-------2--------0-------2-----------0----:-----------------------------------
D----2---2------------2---2-----------------2----:-----------------------------------
A--2-------2------2-2-------2------------2-------:-----------------------------------
D--2--------------2-2----------------------------:-----------------------------------

Other Ending:
   Trou-------ubled     sleep
d-------0-----0-0-0-0-----0-0-0-0---0-0-0-0------0-0-0-0--0-0-0-0----------------------
a-------0-----0-0-0-0-----0-0-0-0---0-0-0-0------0-0-0-0--0-0-0-0----------------------
G--9-9--9-----0-0-0-0-----1-1-1-1---2-2-2-2------1-1-1-1--2-2-2-2----------------------
D--9-9--9-----5-5-5-5-----0-0-0-0---0-0-0-0------0-0-0-0--0-0-0-0----------------------
A--9-9--9-----5-5-5-5---0--------------------0-0---------------------------------------
D--9-9--9-----5-5-5-5---0--------------------0-0---------------------------------------
   U U  U     D D D U     U U D D   D D U D      U U D D  D D U D


so can you make ends meet when they're tattered and frayed
d------------------------------x-----------------0--0---0--0------------------------------
a------------------------------x-----------------9--9---9--9------------------------------
G------------------------------x-----------------0--0---0--0------------------------------
D----------2----2----0---------x-----------------9--9---9--9------------------------------
A----------2----2----2---------x-----------------9--9---9--9------------------------------
D----------2----2----2---------x-----------------9--9---9--9------------------------------
           U    U    U                           D  D   U  D

  make peace with the things that you've done
d-x--------------------------------------0-0--0-0--:---------------------------------------
a-x--------------------------------------0-0--0-0--:---------------------------------------
G-x--------------------------------------9-9--9-9--:---------------------------------------
D-x----2-----2--------0------------------9-9--9-9--:---------------------------------------
A-x----2-----2--------2------------------9-9--9-9--:---------------------------------------
D-x----2-----2--------2------------------9-9--9-9--:---------------------------------------
       U     U        U                  D D  U D

cuz you try to hold me down       and I'm running all around
d--------------0-------0-0-0-0-0------------------0---0-0-0-0-0---:---------------------------
a--------------5-------5-0-0-0-0------------------0---0-3-3-3-3---:---------------------------
G--------------0-------0-0-0-0-0------------------0---0-0-0-0-0---:---------------------------
D-------5-5------------4------------------3-3---------2-----------:---------------------------
A-------5-5------------5------------------3-3---------3-----------:---------------------------
D-------5-5------------4------------------3-3---------2-----------:---------------------------
        U U    U       D D D U D          U U     U   D D D U D  

on the ground
d--------0-0-0-0---0-0-0-0------0-0-0-0--0-0-0-0----------------------
a--------0-0-0-0---0-0-0-0------0-0-0-0--0-0-0-0----------------------
G--------1-1-1-1---2-2-2-2------1-1-1-1--2-2-2-2----------------------
D--------0-0-0-0---0-0-0-0------0-0-0-0--0-0-0-0----------------------
A------0--------------------0-0---------------------------------------
D------0--------------------0-0---------------------------------------
       U U U D D   D D U D  U U U U D D  D D U D

Last time:

I'm digging deep       I am digging wide                        (then same as above)
d--------------0-0-0--------------------0-0-0--0-0-0-------0--
a--------------0-0-0--------------------0-0-0--0-0-0-------0--
G-----------2--2-2-2--------------------0-0-0--0-0-0-------0--
D-----------0--0-0-0---0----0---4----5--5-5-5--4-4-4-------0--
A-----------2----------3----3---4----5------------------------
D----------------------0----0---4----5------------------------
               U D U   D    D   U       U U D  D D D       U      

Ending:
   Lo ove   by my   side
d-----0-----0--0----0----------------
a-----0-----0--0----0----------------
G--9--9-----0--0----2----------------
D--9--9-----5--5----0----------------
A--9--9-----5--5----0----------------
D--9--9-----5--5----0----------------
   U  U     U  U    D


 2001 Dog Dream Music, ASCAP