#PLEASE NOTE: This file represents my impression of how Jonatha Brooke  
plays this song from listening to the track on the CD from Jonatha Brooke 
Ten Cent Wings.  You may only use this file for private study, 
scholarship, or research.  Please email me <marian@jmdl.com> 
if you have a different impression of how it should be played. # 

Updated:  2001-02-24


Crumbs
Words & Music by Jonatha Brooke

Tuning:  EbGBbFBbEb
         Eb43755

VG-8 pitches:  -1 -1 -2 -4 -2 -1  (highest to lowest strings)

Transcribed by:  <marian@jmdl.com>


     000200
I can tell, by the way you're


545000
pushing crumbs around the table  


000200          545000
     you're not listening to me and you


000200             545000
say that you have  come as far as you are


000200
able, but you're not 


545000
far from my tree and you


000200      545000
say, you're okay, but you


000200                   545000
live your life like it's over and you


000200      545000
say, you're okay, but you


000200                   545000
live your life like it's over 


x354xx    54500x     x354xx     54500x
                                      In your


x354xx            54500x 
dreams all your   passion is like liquid


x354xx                   54500x 
fire     you trail your  fingers find the spark and you


x354xx            54500x 
see your face re- flected in the silver spirals


x354xx            54500x 
     but then it  burns down in the dark and you


0 12 12 12 00       0 13 13 13 00   0 13 13 12 00
say you're     o-   kay                          but you


0 12 12 12 00            
live your life like it's 


0 13 13 13 00 
over     and you


0 12 12 12 00       0 13 13 13 00   0 13 13 12 00
say you're     o-   kay                          but you


0 12 12 12 00            
live your life like it's 


888000    10 10 10 000
over


000200    545000     000200    888000   10 10 10 000


555050
All the things you ever tried to


222020
tell me


777070
somehow don't apply to


444040
you


555050
You're the one evading hope side-


222020
stepping every inkling that the


777070
good guy the early bird the


444040
one who tries the one who tries


555050
again


0 12 12 12 00   0 13 13 13 00    0 13 13 12 00

0 12 12 12 00   0 13 13 13 00    0 13 13 12 00

0 12 12 12 00   0 13 13 13 00    0 13 13 12 00

0 12 12 12 00   0 13 13 13 00    0 13 13 12 00
                                              and you


0 12 12 12 00       0 13 13 13 00   0 13 13 12 00
say you're     o-   kay                          but you


0 12 12 12 00            
live your life like it's 


0 13 13 13 00
over     and you


0 12 12 12 00       0 13 13 13 00   0 13 13 12 00
say you're     o-   kay                          but you


0 12 12 12 00            
live your life like it's 


888000    10 10 10 000
over                    and you 


0 12 12 12 00       0 13 13 13 00   0 13 13 12 00
say you're     o-   kay                          but you


0 12 12 12 00            
live your life like it's 


0 13 13 13 00
over     and you


0 12 12 12 00       0 13 13 13 00   0 13 13 12 00
say you're     o-   kay                          but you


0 12 12 12 00            
live your life like it's 


888000    10 10 10 000
over


Eb---0---------------------|---0----------------------
Bb---0---------------------|---0----------------------
F----2---------------------|---0----------------------
Bb---0---0---3---0---3/5---|---5------10--------------
G----0---------------------|---4------10--------------
Eb---0---------------------|---5------10--------------


Eb---0---------------------|---0----------------------
Bb---0---------------------|---0----------------------
F----2---------------------|---0----------------------
Bb---0---0---3---0---3/5---|---5------10--------------
G----0---------------------|---4------10--------------
Eb---0---------------------|---5------10--------------


Eb---0---------------------|---0----------------------
Bb---0---------------------|---0----------------------
F----2---------------------|---0----------------------
Bb---0---0---3---0---3/5---|---5------10--------------
G----0---------------------|---4------10--------------
Eb---0---------------------|---5------10--------------


Eb---0---------------------|---0----------------------
Bb---0---------------------|---0----------------------
F----2---------------------|---0----------------------
Bb---0---0---3---0---3/5---|---5------10--------------
G----0---------------------|---4------10--------------
Eb---0---------------------|---5------10--------------


Outtro:

000200     545000     000200


Eb-------------------------------0-----
Bb------------------------------2------
F------------------------------0-------
Bb-----8------------10--------0--------
G-----8----------10----------0---------
Eb---8---8----10-------10---0----------



 1997 Dog Dream Music (ASCAP), MCA Music Publishing